ISO-10303-21;
HEADER;
FILE_DESCRIPTION (( 'STEP AP203' ),
    '1' );
FILE_NAME ('BK7-BSC-5-650-900.STEP',
    '2020-12-22T03:16:11',
    ( '' ),
    ( '' ),
    'SwSTEP 2.0',
    'SolidWorks 2020',
    '' );
FILE_SCHEMA (( 'CONFIG_CONTROL_DESIGN' ));
ENDSEC;

DATA;
#1 = ORIENTED_EDGE ( 'NONE', *, *, #247, .F. ) ;
#2 = CC_DESIGN_PERSON_AND_ORGANIZATION_ASSIGNMENT ( #116, #240, ( #175 ) ) ;
#3 = CALENDAR_DATE ( 2020, 22, 12 ) ;
#4 = FACE_OUTER_BOUND ( 'NONE', #282, .T. ) ;
#5 = EDGE_LOOP ( 'NONE', ( #14, #1, #220 ) ) ;
#6 = CARTESIAN_POINT ( 'NONE',  ( 0.000000000000000000, 0.000000000000000000, 2.500000000000000000 ) ) ;
#7 = AXIS2_PLACEMENT_3D ( 'NONE', #209, #316, #312 ) ;
#8 = VERTEX_POINT ( 'NONE', #121 ) ;
#9 = EDGE_CURVE ( 'NONE', #162, #144, #313, .T. ) ;
#10 = ADVANCED_FACE ( 'NONE', ( #317 ), #183, .F. ) ;
#11 = CARTESIAN_POINT ( 'NONE',  ( 2.500000000000002220, 2.499999999999999556, 2.500000000000000000 ) ) ;
#12 = CARTESIAN_POINT ( 'NONE',  ( -2.500000000000000000, 2.500000000000001776, 2.500000000000000000 ) ) ;
#13 = CARTESIAN_POINT ( 'NONE',  ( 0.000000000000000000, 0.000000000000000000, -2.500000000000000000 ) ) ;
#14 = ORIENTED_EDGE ( 'NONE', *, *, #253, .F. ) ;
#15 = LOCAL_TIME ( 11, 16, 11.00000000000000000, #186 ) ;
#16 = CARTESIAN_POINT ( 'NONE',  ( 2.500000000000000000, 2.500000000000000888, -2.500000000000000000 ) ) ;
#17 = LINE ( 'NONE', #207, #36 ) ;
#18 = PERSON_AND_ORGANIZATION ( #260, #225 ) ;
#19 = ORIENTED_EDGE ( 'NONE', *, *, #108, .F. ) ;
#20 = COORDINATED_UNIVERSAL_TIME_OFFSET ( 8, 0, .AHEAD. ) ;
#21 = DIRECTION ( 'NONE',  ( 2.220446049250312588E-16, 1.000000000000000000, 0.000000000000000000 ) ) ;
#22 = ORIENTED_EDGE ( 'NONE', *, *, #9, .T. ) ;
#23 = PERSON_AND_ORGANIZATION ( #260, #225 ) ;
#24 = DIRECTION ( 'NONE',  ( -1.000000000000000000, 9.714451465470109868E-17, 0.000000000000000000 ) ) ;
#25 = CC_DESIGN_DATE_AND_TIME_ASSIGNMENT ( #104, #145, ( #175 ) ) ;
#26 = SECURITY_CLASSIFICATION_LEVEL ( 'unclassified' ) ;
#27 = CARTESIAN_POINT ( 'NONE',  ( 2.500000000000000000, 2.500000000000000888, 2.500000000000000000 ) ) ;
#28 = CARTESIAN_POINT ( 'NONE',  ( 2.500000000000000000, 2.500000000000000888, 2.500000000000000000 ) ) ;
#29 = ORIENTED_EDGE ( 'NONE', *, *, #196, .F. ) ;
#30 = EDGE_CURVE ( 'NONE', #83, #147, #17, .T. ) ;
#31 = EDGE_CURVE ( 'NONE', #284, #63, #73, .T. ) ;
#32 = ORIENTED_EDGE ( 'NONE', *, *, #84, .T. ) ;
#33 = VECTOR ( 'NONE', #66, 1000.000000000000000 ) ;
#34 = EDGE_CURVE ( 'NONE', #284, #162, #95, .T. ) ;
#35 = EDGE_CURVE ( 'NONE', #70, #41, #259, .T. ) ;
#36 = VECTOR ( 'NONE', #65, 1000.000000000000000 ) ;
#37 = CARTESIAN_POINT ( 'NONE',  ( -2.500000000000000000, 2.500000000000001776, -2.500000000000000000 ) ) ;
#38 = DIRECTION ( 'NONE',  ( -0.7071067811865476838, -0.7071067811865474617, 0.000000000000000000 ) ) ;
#39 =( LENGTH_UNIT ( ) NAMED_UNIT ( * ) SI_UNIT ( .MILLI., .METRE. ) );
#40 = MANIFOLD_SOLID_BREP ( '¾µÏ', #232 ) ;
#41 = VERTEX_POINT ( 'NONE', #164 ) ;
#42 = FACE_OUTER_BOUND ( 'NONE', #210, .T. ) ;
#43 = VECTOR ( 'NONE', #141, 1000.000000000000000 ) ;
#44 = ORIENTED_EDGE ( 'NONE', *, *, #35, .T. ) ;
#45 = PERSON_AND_ORGANIZATION_ROLE ( 'classification_officer' ) ;
#46 = CARTESIAN_POINT ( 'NONE',  ( 2.500000000000000000, 2.500000000000000888, 2.500000000000000000 ) ) ;
#47 = ORIENTED_EDGE ( 'NONE', *, *, #30, .F. ) ;
#48 = LINE ( 'NONE', #89, #43 ) ;
#49 = PLANE ( 'NONE',  #177 ) ;
#50 = APPROVAL_STATUS ( 'not_yet_approved' ) ;
#51 = COORDINATED_UNIVERSAL_TIME_OFFSET ( 8, 0, .AHEAD. ) ;
#52 = CARTESIAN_POINT ( 'NONE',  ( 0.000000000000000000, 0.000000000000000000, -2.500000000000000000 ) ) ;
#53 = CC_DESIGN_PERSON_AND_ORGANIZATION_ASSIGNMENT ( #143, #265, ( #283 ) ) ;
#54 = CARTESIAN_POINT ( 'NONE',  ( -2.500000000000000888, -2.499999999999998224, -2.500000000000000000 ) ) ;
#55 = ORIENTED_EDGE ( 'NONE', *, *, #9, .F. ) ;
#56 = LINE ( 'NONE', #146, #57 ) ;
#57 = VECTOR ( 'NONE', #215, 1000.000000000000000 ) ;
#58 = LOCAL_TIME ( 11, 16, 11.00000000000000000, #20 ) ;
#59 = ADVANCED_FACE ( 'NONE', ( #267 ), #49, .T. ) ;
#60 = APPROVAL ( #211, 'UNSPECIFIED' ) ;
#61 = DIRECTION ( 'NONE',  ( 0.000000000000000000, 0.000000000000000000, 1.000000000000000000 ) ) ;
#62 = AXIS2_PLACEMENT_3D ( 'NONE', #81, #191, #74 ) ;
#63 = VERTEX_POINT ( 'NONE', #227 ) ;
#64 = DIRECTION ( 'NONE',  ( -3.469446951953614189E-16, -1.000000000000000000, 0.000000000000000000 ) ) ;
#65 = DIRECTION ( 'NONE',  ( -0.000000000000000000, 0.000000000000000000, -1.000000000000000000 ) ) ;
#66 = DIRECTION ( 'NONE',  ( 1.000000000000000000, 0.000000000000000000, 0.000000000000000000 ) ) ;
#67 = CARTESIAN_POINT ( 'NONE',  ( -2.499999999999999556, -2.500000000000000444, 2.500000000000000000 ) ) ;
#68 = DIRECTION ( 'NONE',  ( 2.220446049250312588E-16, 1.000000000000000000, 0.000000000000000000 ) ) ;
#69 = AXIS2_PLACEMENT_3D ( 'NONE', #314, #97, #61 ) ;
#70 = VERTEX_POINT ( 'NONE', #12 ) ;
#71 = DATE_AND_TIME ( #290, #15 ) ;
#72 = DIRECTION ( 'NONE',  ( -1.000000000000000000, 3.469446951953614189E-16, 0.000000000000000000 ) ) ;
#73 = LINE ( 'NONE', #118, #130 ) ;
#74 = DIRECTION ( 'NONE',  ( 1.000000000000000000, 0.000000000000000000, 0.000000000000000000 ) ) ;
#75 = DIRECTION ( 'NONE',  ( 3.469446951953614189E-16, 1.000000000000000000, -0.000000000000000000 ) ) ;
#76 = DESIGN_CONTEXT ( 'detailed design', #319, 'design' ) ;
#77 = ORIENTED_EDGE ( 'NONE', *, *, #247, .T. ) ;
#78 = APPLICATION_PROTOCOL_DEFINITION ( 'international standard', 'config_control_design', 1994, #110 ) ;
#79 = DIRECTION ( 'NONE',  ( 1.000000000000000000, 0.000000000000000000, 0.000000000000000000 ) ) ;
#80 = ORIENTED_EDGE ( 'NONE', *, *, #258, .T. ) ;
#81 = CARTESIAN_POINT ( 'NONE',  ( 0.000000000000000000, 0.000000000000000000, 0.000000000000000000 ) ) ;
#82 = APPROVAL_DATE_TIME ( #71, #87 ) ;
#83 = VERTEX_POINT ( 'NONE', #105 ) ;
#84 = EDGE_CURVE ( 'NONE', #83, #70, #56, .T. ) ;
#85 = ADVANCED_FACE ( 'NONE', ( #296 ), #212, .T. ) ;
#86 = EDGE_CURVE ( 'NONE', #41, #270, #272, .T. ) ;
#87 = APPROVAL ( #208, 'UNSPECIFIED' ) ;
#88 = DIRECTION ( 'NONE',  ( 1.000000000000000000, -9.714451465470109868E-17, 0.000000000000000000 ) ) ;
#89 = CARTESIAN_POINT ( 'NONE',  ( 2.500000000000002220, 2.499999999999999556, -2.500000000000000000 ) ) ;
#90 = VECTOR ( 'NONE', #289, 1000.000000000000000 ) ;
#91 = CC_DESIGN_APPROVAL ( #87, ( #223 ) ) ;
#92 = ORIENTED_EDGE ( 'NONE', *, *, #30, .T. ) ;
#93 = EDGE_LOOP ( 'NONE', ( #150, #123, #80 ) ) ;
#94 = DIRECTION ( 'NONE',  ( 0.7071067811865476838, 0.7071067811865473507, 0.000000000000000000 ) ) ;
#95 = LINE ( 'NONE', #185, #303 ) ;
#96 = APPROVAL_ROLE ( '' ) ;
#97 = DIRECTION ( 'NONE',  ( 1.000000000000000000, -4.440892098500625176E-16, 0.000000000000000000 ) ) ;
#98 = ADVANCED_FACE ( 'NONE', ( #300 ), #277, .F. ) ;
#99 = CC_DESIGN_SECURITY_CLASSIFICATION ( #223, ( #283 ) ) ;
#100 = EDGE_LOOP ( 'NONE', ( #142, #22, #176 ) ) ;
#101 = CARTESIAN_POINT ( 'NONE',  ( 2.500000000000000444, -2.500000000000000444, 2.500000000000000000 ) ) ;
#102 = ORIENTED_EDGE ( 'NONE', *, *, #84, .F. ) ;
#103 = PLANE ( 'NONE',  #222 ) ;
#104 = DATE_AND_TIME ( #171, #280 ) ;
#105 = CARTESIAN_POINT ( 'NONE',  ( -2.500000000000000888, -2.499999999999998224, 2.500000000000000000 ) ) ;
#106 = PRODUCT_DEFINITION_SHAPE ( 'NONE', 'NONE',  #175 ) ;
#107 = LINE ( 'NONE', #101, #153 ) ;
#108 = EDGE_CURVE ( 'NONE', #70, #237, #321, .T. ) ;
#109 = VECTOR ( 'NONE', #202, 1000.000000000000000 ) ;
#110 = APPLICATION_CONTEXT ( 'configuration controlled 3d designs of mechanical parts and assemblies' ) ;
#111 = ADVANCED_FACE ( 'NONE', ( #4 ), #103, .F. ) ;
#112 = ORIENTED_EDGE ( 'NONE', *, *, #308, .F. ) ;
#113 = CC_DESIGN_PERSON_AND_ORGANIZATION_ASSIGNMENT ( #23, #243, ( #283 ) ) ;
#114 = DIRECTION ( 'NONE',  ( 0.7071067811865474617, -0.7071067811865476838, 0.000000000000000000 ) ) ;
#115 = ORIENTED_EDGE ( 'NONE', *, *, #258, .F. ) ;
#116 = PERSON_AND_ORGANIZATION ( #260, #225 ) ;
#117 = APPROVAL ( #50, 'UNSPECIFIED' ) ;
#118 = CARTESIAN_POINT ( 'NONE',  ( 2.500000000000002220, 2.499999999999999556, 2.500000000000000000 ) ) ;
#119 = CALENDAR_DATE ( 2020, 22, 12 ) ;
#120 = AXIS2_PLACEMENT_3D ( 'NONE', #234, #114, #205 ) ;
#121 = CARTESIAN_POINT ( 'NONE',  ( 2.500000000000000444, -2.500000000000000444, -2.500000000000000000 ) ) ;
#122 = LINE ( 'NONE', #302, #291 ) ;
#123 = ORIENTED_EDGE ( 'NONE', *, *, #308, .T. ) ;
#124 = PERSON_AND_ORGANIZATION ( #260, #225 ) ;
#125 = DIRECTION ( 'NONE',  ( -0.000000000000000000, 0.000000000000000000, 1.000000000000000000 ) ) ;
#126 = EDGE_LOOP ( 'NONE', ( #214, #158, #102 ) ) ;
#127 = CC_DESIGN_PERSON_AND_ORGANIZATION_ASSIGNMENT ( #168, #271, ( #180 ) ) ;
#128 = LINE ( 'NONE', #174, #310 ) ;
#129 = CC_DESIGN_PERSON_AND_ORGANIZATION_ASSIGNMENT ( #261, #45, ( #223 ) ) ;
#130 = VECTOR ( 'NONE', #315, 1000.000000000000000 ) ;
#131 = APPROVAL_PERSON_ORGANIZATION ( #238, #60, #148 ) ;
#132 = APPROVAL_PERSON_ORGANIZATION ( #18, #87, #96 ) ;
#133 = CARTESIAN_POINT ( 'NONE',  ( 2.500000000000000000, 2.500000000000000888, 2.500000000000000000 ) ) ;
#134 = EDGE_CURVE ( 'NONE', #270, #147, #241, .T. ) ;
#135 = LINE ( 'NONE', #307, #279 ) ;
#136 = EDGE_LOOP ( 'NONE', ( #246, #311, #55, #294 ) ) ;
#137 = DIRECTION ( 'NONE',  ( 1.000000000000000000, 0.000000000000000000, 0.000000000000000000 ) ) ;
#138 = DATE_AND_TIME ( #3, #161 ) ;
#139 = LINE ( 'NONE', #206, #152 ) ;
#140 = DATE_AND_TIME ( #244, #204 ) ;
#141 = DIRECTION ( 'NONE',  ( 3.469446951953614189E-16, 1.000000000000000000, -0.000000000000000000 ) ) ;
#142 = ORIENTED_EDGE ( 'NONE', *, *, #34, .T. ) ;
#143 = PERSON_AND_ORGANIZATION ( #260, #225 ) ;
#144 = VERTEX_POINT ( 'NONE', #275 ) ;
#145 = DATE_TIME_ROLE ( 'creation_date' ) ;
#146 = CARTESIAN_POINT ( 'NONE',  ( -2.500000000000000888, -2.499999999999998224, 2.500000000000000000 ) ) ;
#147 = VERTEX_POINT ( 'NONE', #54 ) ;
#148 = APPROVAL_ROLE ( '' ) ;
#149 = DIRECTION ( 'NONE',  ( -0.000000000000000000, -0.000000000000000000, -1.000000000000000000 ) ) ;
#150 = ORIENTED_EDGE ( 'NONE', *, *, #134, .T. ) ;
#151 = ORIENTED_EDGE ( 'NONE', *, *, #134, .F. ) ;
#152 = VECTOR ( 'NONE', #226, 1000.000000000000000 ) ;
#153 = VECTOR ( 'NONE', #149, 1000.000000000000000 ) ;
#154 = EDGE_CURVE ( 'NONE', #144, #8, #107, .T. ) ;
#155 = DIRECTION ( 'NONE',  ( -0.7071067811865473507, 0.7071067811865476838, 0.000000000000000000 ) ) ;
#156 = DIRECTION ( 'NONE',  ( -0.000000000000000000, 0.000000000000000000, 1.000000000000000000 ) ) ;
#157 = LINE ( 'NONE', #46, #109 ) ;
#158 = ORIENTED_EDGE ( 'NONE', *, *, #35, .F. ) ;
#159 = FACE_OUTER_BOUND ( 'NONE', #286, .T. ) ;
#160 = AXIS2_PLACEMENT_3D ( 'NONE', #13, #255, #68 ) ;
#161 = LOCAL_TIME ( 11, 16, 11.00000000000000000, #216 ) ;
#162 = VERTEX_POINT ( 'NONE', #245 ) ;
#163 = COORDINATED_UNIVERSAL_TIME_OFFSET ( 8, 0, .AHEAD. ) ;
#164 = CARTESIAN_POINT ( 'NONE',  ( 2.500000000000000000, 2.500000000000000888, 2.500000000000000000 ) ) ;
#165 = DATE_AND_TIME ( #119, #58 ) ;
#166 = DIRECTION ( 'NONE',  ( -0.7071067811865476838, -0.7071067811865474617, 0.000000000000000000 ) ) ;
#167 = ORIENTED_EDGE ( 'NONE', *, *, #86, .T. ) ;
#168 = PERSON_AND_ORGANIZATION ( #260, #225 ) ;
#169 = AXIS2_PLACEMENT_3D ( 'NONE', #133, #155, #94 ) ;
#170 = ORIENTED_EDGE ( 'NONE', *, *, #154, .T. ) ;
#171 = CALENDAR_DATE ( 2020, 22, 12 ) ;
#172 = CARTESIAN_POINT ( 'NONE',  ( 2.500000000000000000, 2.500000000000000888, -2.500000000000000000 ) ) ;
#173 = CC_DESIGN_DATE_AND_TIME_ASSIGNMENT ( #138, #193, ( #223 ) ) ;
#174 = CARTESIAN_POINT ( 'NONE',  ( 2.500000000000002220, 2.499999999999999556, 2.500000000000000000 ) ) ;
#175 = PRODUCT_DEFINITION ( 'UNKNOWN', '', #283, #76 ) ;
#176 = ORIENTED_EDGE ( 'NONE', *, *, #184, .T. ) ;
#177 = AXIS2_PLACEMENT_3D ( 'NONE', #320, #156, #256 ) ;
#178 = ORIENTED_EDGE ( 'NONE', *, *, #86, .F. ) ;
#179 = CARTESIAN_POINT ( 'NONE',  ( -2.500000000000000888, -2.499999999999998224, -2.500000000000000000 ) ) ;
#180 = PRODUCT ( 'BK7-BSC-5-650-900', 'BK7-BSC-5-650-900', '', ( #235 ) ) ;
#181 = EDGE_LOOP ( 'NONE', ( #112, #47, #32, #274 ) ) ;
#182 =( NAMED_UNIT ( * ) PLANE_ANGLE_UNIT ( ) SI_UNIT ( $, .RADIAN. ) );
#183 = PLANE ( 'NONE',  #120 ) ;
#184 = EDGE_CURVE ( 'NONE', #144, #284, #128, .T. ) ;
#185 = CARTESIAN_POINT ( 'NONE',  ( 2.500000000000002220, 2.499999999999999556, 2.500000000000000000 ) ) ;
#186 = COORDINATED_UNIVERSAL_TIME_OFFSET ( 8, 0, .AHEAD. ) ;
#187 = PLANE ( 'NONE',  #160 ) ;
#188 = ORIENTED_EDGE ( 'NONE', *, *, #31, .T. ) ;
#189 = APPLICATION_PROTOCOL_DEFINITION ( 'international standard', 'config_control_design', 1994, #319 ) ;
#190 = UNCERTAINTY_MEASURE_WITH_UNIT (LENGTH_MEASURE( 1.000000000000000082E-05 ), #39, 'distance_accuracy_value', 'NONE');
#191 = DIRECTION ( 'NONE',  ( 0.000000000000000000, 0.000000000000000000, 1.000000000000000000 ) ) ;
#192 = DIRECTION ( 'NONE',  ( -0.000000000000000000, -0.000000000000000000, -1.000000000000000000 ) ) ;
#193 = DATE_TIME_ROLE ( 'classification_date' ) ;
#194 = DIRECTION ( 'NONE',  ( -9.714451465470109868E-17, -1.000000000000000000, 0.000000000000000000 ) ) ;
#195 = CARTESIAN_POINT ( 'NONE',  ( -2.500000000000000000, 2.500000000000001776, 2.500000000000000000 ) ) ;
#196 = EDGE_CURVE ( 'NONE', #162, #230, #122, .T. ) ;
#197 = AXIS2_PLACEMENT_3D ( 'NONE', #6, #269, #318 ) ;
#198 = ADVANCED_FACE ( 'NONE', ( #297 ), #262, .F. ) ;
#199 = ADVANCED_BREP_SHAPE_REPRESENTATION ( 'BK7-BSC-5-650-900', ( #252, #40, #62 ), #301 ) ;
#200 = PLANE ( 'NONE',  #248 ) ;
#201 = EDGE_LOOP ( 'NONE', ( #249, #29, #276, #188 ) ) ;
#202 = DIRECTION ( 'NONE',  ( -0.7071067811865476838, -0.7071067811865474617, 0.000000000000000000 ) ) ;
#203 = VECTOR ( 'NONE', #21, 1000.000000000000000 ) ;
#204 = LOCAL_TIME ( 11, 16, 11.00000000000000000, #51 ) ;
#205 = DIRECTION ( 'NONE',  ( 0.7071067811865476838, 0.7071067811865474617, 0.000000000000000000 ) ) ;
#206 = CARTESIAN_POINT ( 'NONE',  ( 2.500000000000002220, 2.499999999999999556, -2.500000000000000000 ) ) ;
#207 = CARTESIAN_POINT ( 'NONE',  ( -2.500000000000000888, -2.499999999999998224, 2.500000000000000000 ) ) ;
#208 = APPROVAL_STATUS ( 'not_yet_approved' ) ;
#209 = CARTESIAN_POINT ( 'NONE',  ( -2.499999999999999556, -2.500000000000000444, 2.500000000000000000 ) ) ;
#210 = EDGE_LOOP ( 'NONE', ( #77, #218, #298, #170 ) ) ;
#211 = APPROVAL_STATUS ( 'not_yet_approved' ) ;
#212 = PLANE ( 'NONE',  #197 ) ;
#213 = ADVANCED_FACE ( 'NONE', ( #257 ), #287, .F. ) ;
#214 = ORIENTED_EDGE ( 'NONE', *, *, #305, .F. ) ;
#215 = DIRECTION ( 'NONE',  ( 2.220446049250312588E-16, 1.000000000000000000, 0.000000000000000000 ) ) ;
#216 = COORDINATED_UNIVERSAL_TIME_OFFSET ( 8, 0, .AHEAD. ) ;
#217 = DIRECTION ( 'NONE',  ( -0.000000000000000000, 0.000000000000000000, -1.000000000000000000 ) ) ;
#218 = ORIENTED_EDGE ( 'NONE', *, *, #31, .F. ) ;
#219 = DIRECTION ( 'NONE',  ( -0.000000000000000000, 0.000000000000000000, -1.000000000000000000 ) ) ;
#220 = ORIENTED_EDGE ( 'NONE', *, *, #288, .F. ) ;
#221 = PRODUCT_RELATED_PRODUCT_CATEGORY ( 'detail', '', ( #180 ) ) ;
#222 = AXIS2_PLACEMENT_3D ( 'NONE', #28, #194, #24 ) ;
#223 = SECURITY_CLASSIFICATION ( '', '', #26 ) ;
#224 = ADVANCED_FACE ( 'NONE', ( #159 ), #228, .F. ) ;
#225 = ORGANIZATION ( 'UNSPECIFIED', 'UNSPECIFIED', '' ) ;
#226 = DIRECTION ( 'NONE',  ( -0.7071067811865476838, -0.7071067811865474617, 0.000000000000000000 ) ) ;
#227 = CARTESIAN_POINT ( 'NONE',  ( 2.500000000000002220, 2.499999999999999556, -2.500000000000000000 ) ) ;
#228 = PLANE ( 'NONE',  #169 ) ;
#229 = ADVANCED_FACE ( 'NONE', ( #285 ), #187, .F. ) ;
#230 = VERTEX_POINT ( 'NONE', #292 ) ;
#231 =( NAMED_UNIT ( * ) SI_UNIT ( $, .STERADIAN. ) SOLID_ANGLE_UNIT ( ) );
#232 = CLOSED_SHELL ( 'NONE', ( #224, #213, #111, #85, #229 ) ) ;
#233 = APPROVAL_PERSON_ORGANIZATION ( #124, #117, #295 ) ;
#234 = CARTESIAN_POINT ( 'NONE',  ( 2.500000000000002220, 2.499999999999999556, 2.500000000000000000 ) ) ;
#235 = MECHANICAL_CONTEXT ( 'NONE', #110, 'mechanical' ) ;
#236 = CARTESIAN_POINT ( 'NONE',  ( 2.500000000000002220, 2.499999999999999556, 2.500000000000000000 ) ) ;
#237 = VERTEX_POINT ( 'NONE', #37 ) ;
#238 = PERSON_AND_ORGANIZATION ( #260, #225 ) ;
#239 = LINE ( 'NONE', #179, #203 ) ;
#240 = PERSON_AND_ORGANIZATION_ROLE ( 'creator' ) ;
#241 = LINE ( 'NONE', #172, #273 ) ;
#242 = SHAPE_DEFINITION_REPRESENTATION ( #106, #199 ) ;
#243 = PERSON_AND_ORGANIZATION_ROLE ( 'design_supplier' ) ;
#244 = CALENDAR_DATE ( 2020, 22, 12 ) ;
#245 = CARTESIAN_POINT ( 'NONE',  ( -2.499999999999999556, -2.500000000000000444, 2.500000000000000000 ) ) ;
#246 = ORIENTED_EDGE ( 'NONE', *, *, #288, .T. ) ;
#247 = EDGE_CURVE ( 'NONE', #8, #63, #48, .T. ) ;
#248 = AXIS2_PLACEMENT_3D ( 'NONE', #236, #72, #64 ) ;
#249 = ORIENTED_EDGE ( 'NONE', *, *, #253, .T. ) ;
#250 = ADVANCED_FACE ( 'NONE', ( #42 ), #200, .F. ) ;
#251 = CLOSED_SHELL ( 'NONE', ( #10, #198, #250, #59, #98 ) ) ;
#252 = MANIFOLD_SOLID_BREP ( 'Í¹Ì¨-À', #251 ) ;
#253 = EDGE_CURVE ( 'NONE', #63, #230, #139, .T. ) ;
#254 = CC_DESIGN_APPROVAL ( #60, ( #283 ) ) ;
#255 = DIRECTION ( 'NONE',  ( 0.000000000000000000, -0.000000000000000000, 1.000000000000000000 ) ) ;
#256 = DIRECTION ( 'NONE',  ( 1.000000000000000000, 0.000000000000000000, 0.000000000000000000 ) ) ;
#257 = FACE_OUTER_BOUND ( 'NONE', #181, .T. ) ;
#258 = EDGE_CURVE ( 'NONE', #237, #270, #135, .T. ) ;
#259 = LINE ( 'NONE', #264, #90 ) ;
#260 = PERSON ( 'UNSPECIFIED', 'UNSPECIFIED', 'UNSPECIFIED', ('UNSPECIFIED'), ('UNSPECIFIED'), ('UNSPECIFIED') ) ;
#261 = PERSON_AND_ORGANIZATION ( #260, #225 ) ;
#262 = PLANE ( 'NONE',  #7 ) ;
#263 = VECTOR ( 'NONE', #137, 1000.000000000000000 ) ;
#264 = CARTESIAN_POINT ( 'NONE',  ( 2.500000000000000000, 2.500000000000000888, 2.500000000000000000 ) ) ;
#265 = PERSON_AND_ORGANIZATION_ROLE ( 'creator' ) ;
#266 = CARTESIAN_POINT ( 'NONE',  ( -2.499999999999999556, -2.500000000000000444, -2.500000000000000000 ) ) ;
#267 = FACE_OUTER_BOUND ( 'NONE', #100, .T. ) ;
#268 = APPROVAL_DATE_TIME ( #165, #60 ) ;
#269 = DIRECTION ( 'NONE',  ( 0.000000000000000000, -0.000000000000000000, 1.000000000000000000 ) ) ;
#270 = VERTEX_POINT ( 'NONE', #16 ) ;
#271 = PERSON_AND_ORGANIZATION_ROLE ( 'design_owner' ) ;
#272 = LINE ( 'NONE', #27, #306 ) ;
#273 = VECTOR ( 'NONE', #166, 1000.000000000000000 ) ;
#274 = ORIENTED_EDGE ( 'NONE', *, *, #108, .T. ) ;
#275 = CARTESIAN_POINT ( 'NONE',  ( 2.500000000000000444, -2.500000000000000444, 2.500000000000000000 ) ) ;
#276 = ORIENTED_EDGE ( 'NONE', *, *, #34, .F. ) ;
#277 = PLANE ( 'NONE',  #293 ) ;
#278 = ORIENTED_EDGE ( 'NONE', *, *, #305, .T. ) ;
#279 = VECTOR ( 'NONE', #88, 1000.000000000000000 ) ;
#280 = LOCAL_TIME ( 11, 16, 11.00000000000000000, #163 ) ;
#281 = VECTOR ( 'NONE', #219, 1000.000000000000000 ) ;
#282 = EDGE_LOOP ( 'NONE', ( #115, #19, #44, #167 ) ) ;
#283 = PRODUCT_DEFINITION_FORMATION_WITH_SPECIFIED_SOURCE ( 'ANY', '', #180, .NOT_KNOWN. ) ;
#284 = VERTEX_POINT ( 'NONE', #11 ) ;
#285 = FACE_OUTER_BOUND ( 'NONE', #93, .T. ) ;
#286 = EDGE_LOOP ( 'NONE', ( #151, #178, #278, #92 ) ) ;
#287 = PLANE ( 'NONE',  #69 ) ;
#288 = EDGE_CURVE ( 'NONE', #230, #8, #309, .T. ) ;
#289 = DIRECTION ( 'NONE',  ( 1.000000000000000000, -9.714451465470109868E-17, 0.000000000000000000 ) ) ;
#290 = CALENDAR_DATE ( 2020, 22, 12 ) ;
#291 = VECTOR ( 'NONE', #192, 1000.000000000000000 ) ;
#292 = CARTESIAN_POINT ( 'NONE',  ( -2.499999999999999556, -2.500000000000000444, -2.500000000000000000 ) ) ;
#293 = AXIS2_PLACEMENT_3D ( 'NONE', #52, #125, #79 ) ;
#294 = ORIENTED_EDGE ( 'NONE', *, *, #196, .T. ) ;
#295 = APPROVAL_ROLE ( '' ) ;
#296 = FACE_OUTER_BOUND ( 'NONE', #126, .T. ) ;
#297 = FACE_OUTER_BOUND ( 'NONE', #136, .T. ) ;
#298 = ORIENTED_EDGE ( 'NONE', *, *, #184, .F. ) ;
#299 = APPROVAL_DATE_TIME ( #140, #117 ) ;
#300 = FACE_OUTER_BOUND ( 'NONE', #5, .T. ) ;
#301 =( GEOMETRIC_REPRESENTATION_CONTEXT ( 3 ) GLOBAL_UNCERTAINTY_ASSIGNED_CONTEXT ( ( #190 ) ) GLOBAL_UNIT_ASSIGNED_CONTEXT ( ( #39, #182, #231 ) ) REPRESENTATION_CONTEXT ( 'NONE', 'WORKASPACE' ) );
#302 = CARTESIAN_POINT ( 'NONE',  ( -2.499999999999999556, -2.500000000000000444, 2.500000000000000000 ) ) ;
#303 = VECTOR ( 'NONE', #38, 1000.000000000000000 ) ;
#304 = CC_DESIGN_APPROVAL ( #117, ( #175 ) ) ;
#305 = EDGE_CURVE ( 'NONE', #41, #83, #157, .T. ) ;
#306 = VECTOR ( 'NONE', #217, 1000.000000000000000 ) ;
#307 = CARTESIAN_POINT ( 'NONE',  ( 2.500000000000000000, 2.500000000000000888, -2.500000000000000000 ) ) ;
#308 = EDGE_CURVE ( 'NONE', #147, #237, #239, .T. ) ;
#309 = LINE ( 'NONE', #266, #33 ) ;
#310 = VECTOR ( 'NONE', #75, 1000.000000000000000 ) ;
#311 = ORIENTED_EDGE ( 'NONE', *, *, #154, .F. ) ;
#312 = DIRECTION ( 'NONE',  ( 0.000000000000000000, -0.000000000000000000, 1.000000000000000000 ) ) ;
#313 = LINE ( 'NONE', #67, #263 ) ;
#314 = CARTESIAN_POINT ( 'NONE',  ( -2.500000000000000888, -2.499999999999998224, 2.500000000000000000 ) ) ;
#315 = DIRECTION ( 'NONE',  ( -0.000000000000000000, -0.000000000000000000, -1.000000000000000000 ) ) ;
#316 = DIRECTION ( 'NONE',  ( 0.000000000000000000, 1.000000000000000000, 0.000000000000000000 ) ) ;
#317 = FACE_OUTER_BOUND ( 'NONE', #201, .T. ) ;
#318 = DIRECTION ( 'NONE',  ( 2.220446049250312588E-16, 1.000000000000000000, 0.000000000000000000 ) ) ;
#319 = APPLICATION_CONTEXT ( 'configuration controlled 3d designs of mechanical parts and assemblies' ) ;
#320 = CARTESIAN_POINT ( 'NONE',  ( 0.000000000000000000, 0.000000000000000000, 2.500000000000000000 ) ) ;
#321 = LINE ( 'NONE', #195, #281 ) ;
ENDSEC;
END-ISO-10303-21;
